Jump to content

Recommended Posts

"Retarded" Tab

Retarded

--------------------------------------------------------------------------------

Those nifty powerchords in the beginning

Cm7 B5

EADGBE EADGBE

x32400 x24400

in between crankin'this chord, you play a little descending run on the

G-string

G-----4-4-4p2p0---

It's an E-when Greg starts screaming, but that's all I remember right now.

--------------------------------------------------------------------------------

Thanks to Christopher A Myers (camyers@magnus.acs.ohio-state.edu) for sending

this out to this whigs list.

--------------------------------------------------------------------------------

It`s a tricky one, I`ll admit to that. I don`t have my guitar with

me, so I`m not 100% on this, but it`s some kind of c-cord, and then goes

into c/h for the refrain.

The opening is like this:

0=open x=muted

Funky

low x x x x x x x x x x

3 3 3 3 3 3 3 3 3 3

x x x x x x x x x x

4 4 4 4 4 4 2 2 0 2

0 0 0 0 0 0 0 0 0 0

0 0 0 0 0 0 0 0 0 0

The refrain continues in the same way, only alternating between c

and h (B?) on the fifth string(3&2 second fret).

The rest of the song basically follows suit. Just find out what John

is playing, and take it from there.

--------------------------------------------------------------------------------

Thanks to Tor Stian Bjordal Lillegraven (t.s.b.lillegraven@hfstud.uio.no) for

sending this out to the whigs list.

--------------------------------------------------------------------------------

the song is based on two chords and one line.

it goes like that :

first chord :

e ---0---------

b ---0----------

g ---4----------

d ---2----------

a ---3----------

e --------------

between the next chord :

e ---------------

b ---------------

g --4-4-2-0------

d ---------------

a ---------------

e ---------------

second chord :

e ---0---------

b ---0----------

g ---4----------

d ---4----------

a ---2----------

e --------------

and the line again....

e ---------------

b ---------------

g --4-4-2-0------

d ---------------

a ---------------

e ---------------

Link to post
Share on other sites

Join the conversation

You can post now and register later. If you have an account, sign in now to post with your account.

Guest
Reply to this topic...

×   Pasted as rich text.   Paste as plain text instead

  Only 75 emoji are allowed.

×   Your link has been automatically embedded.   Display as a link instead

×   Your previous content has been restored.   Clear editor

×   You cannot paste images directly. Upload or insert images from URL.

×
×
  • Create New...