Jump to content

Recommended Posts

Here's some tab from the Seattle Drone band "EARTH" that I have collected/tabbed.

The timing is not always correct so just listen to the CD. Like all EARTH songs, they are very basic. As most of you would probably know, Earths Dylan Carlson was Kurt's best friend!

I, and you, can add to it as you/we wish! :)

Songs in RED are some of my favorites.

Coda Maestoso In F Flat Minor

e|----------------------------------------------------------|

B|----------------------------------------------------------|

G|-------9---------5-----------2----------2-----------------|

D|-----9---------5---5-------2---2----0h2---2---------------|

A|---7---------3------------0--------0----------0h2----------|

E|-0-----------------------------------------------3b-------|

^ ^

slow slide small bend

Tallahassee

Tuning: drop D

main riff

e|---------------------------------------------------------------------------|

B|---------------------------------------------------------------------------|

G|----------------------------------------------------5----------------------|

D|------------------------------------------------5h7---7--------------------|

A|-3-/-5---5---5-5---5-5----5-/-8---8---8-8---8-8----------------------------|

D|-0---0-0-0-0-0-0-0-0-0----0---0-0-0-0-0-0-0-0-0----------------------------|

variation to the main riff (just repeat the first half)

e|---------------------------------------------------------------------------|

B|---------------------------------------------------------------------------|

G|--------------------------------------------------------5-----5-----5------|

D|--------------------------------------(solo)----7-7p5-5---5h7---7-7--------|

A|-3-/-5---5---5-5---5-5-----------------------------------------------------|

D|-0---0-0-0-0-0-0-0-0-0-----------------------------------------------------|

e|---------------------------------------x-x---------------------------------|

B|--------6~6-3-----------------6B-------x-x---------------------------------|

G|-9^10---------555-0-0-0h2-------7-5-7--x-x-----5-5-----5-------------------|

D|---------------------------------------x-x-5-7-----7-7---------------------|

A|---------------------------------------x-x---------------------------------|

D|---------------------------------------x-X---------------------------------|

e|-------8-5-8/10B-----------------------------------------------------------|

B|---8B-----------------------------------6---------------------------------|

G|-------------------7-----5-5-----------------------------------------------|

D|---------------------5h7-----7-5--7----------------------------------------|

A|---------------------------------------------------------------------------|

D|---------------------------------------------------------------------------|

Ouroboros Is Broken

e|----------------------------------------------------------------------------------------------------|

B|-------------------------------------9--------------------------------------------------------------|

G|---10---------7--------9------------------------------------------------------------------------------|

D|---10---------7--------9---------------------8---7~~~~---------------------------------------------|

A|----8---------5---------7------------------9----------------5--7--9--5---------2----5----4----2-----|

E|----0----------------------------------------------------------------------------0----3---2-----0-----|

Note,last four chords are power chords: E, G, F#, E.

Not picked like the tab turned out here.

Repeat through whole song.

Phase 90 on during "~~~~" part.

Charioteer (Temple Song)

played on a baroque guitar

e|---------------------------------------------------------------------------|

B|---------------------------------------------------------------------------|

G|-7-7-8-7-5-3-2-2-2-3-0-2-3-3-3-5-3-2---------------------------------------|

D|-0-0-0-------0-0-0-------0-0-0-----0---------------------------------------|

A|---------------------------------------------------------------------------|

E|---------------------------------------------------------------------------|

some variations extend the riff

e|---------------------------------------------------------------------------|

B|---------------------------------------------------------------------------|

G|-7-7-8-7-5-3-2-2-2-3-0-2-3-3-3-5-3-2-2-2-3-0-2-3-3-3-5-3-2-----------------|

D|-0-0-0-------0-0-0-------0-0-0-----0-0-0-------0-0-0-----0-----------------|

A|---------------------------------------------------------------------------|

E|---------------------------------------------------------------------------|

| / slide up

| slide down

| h hammer-on

| p pull-off

| ~ vibrato

| + harmonic

| x Mute note

DIVINE AND BRIGHT

intro

|----R--|

|----A--|

|----N--|

|-5--D--|

|-5--O--|

|-3--M--|

main riff

|----------------------------|

|----------------------------|

|----------------------------|

|-/5--5-5--5-5---------------|

|-/5--5-5--5-5--/5--5-5--5-5-|

|-/3------------/3--3-3--3-3-|

2nd riff

|---------------------------------------|-------------------------|

|---------------------------------------|-------------------------|

|---------------------------------------|-------------------------|

|-/5--5-5-------------------------------|-/5--5-5-/4--4-4-/2--2-0-|

|-/5--5-5-/5--5-5-10--10-10-10-5--5-5-5-|-/5--5-5-/4--4-4-/2--2-0-|

|-/3------/3--3-3- 8-- 8- 8- 8-3--3-3-3-|-/3------/2-------0------|

High Command

e|---------------------------------------------------------------------------|

B|---------------------------------------------------------------------------|

G|---------------------------------------------------------------------------|

D|---------------------------------------------------------------------------|

A|-5-5--5h7-5p3-5h8p5-5--3-3-3/5---------------------------------------------|

E|-0-0----------------0--0-0-0-0---------------------------------------------|

(about 1 min in)

e|---------------------------------------------------------------------------|

B|---------------------------------------------------------------------------|

G|---------------------------------------------------------------------------|

D|---------------------------------------------------------------------------|

A|-7-7h8-5--7-7h8-5--7-7h8-5--7-7h8-5--10-10-1010105------------------------|

E|-0--------0--------0--------0---------------------0------------------------|

| / slide up

| slide down

| h hammer-on

| p pull-off

| ~ vibrato

| + harmonic

| x Mute note

Land of Some Other Order

There are some overdubs, I believe.

Those will be under "Guitar 2".

All parts of the song are below, but no sequence is included.

Below repeats for about a minute and a half, then variations start to come in.

e|---------------------------------------------------------------------------|

B|---------------------------------------------------------------------------|

G|------------------------------------4--------------------------------------|

D|-------5------1--0-----5------9---0----------------------------------------|

A|-7--7------2--------3------7-----------5--3-------------------------------|

E|-0-------------------------0-----------------------------------------------|

1:30 Guitar 1

e|---------------------------------------------------------------------------|

B|---------------------------------------------------------------------------|

G|------------------------------4-----9------------------------------7h-9--7-|

D|-------5------1--0-----5---0---------------2--0-------0--------------------|

A|-7--7------2--------3------------7------3--------2--------------7----------|

E|-0--------------------------------------------------------------0----------|

Overdub (Heavier, booming sound)

e|---------------------------------------------------------------------------|

B|---------------------------------------------------------------------------|

G|---------------------------------------------------------------------------|

D|------------------------------------9--------------------------------------|

A|---------------------------------7-----------------------2~----------------|

E|---------------------------------0-----------------------------------------|

Guitar 1

e|---------------------------------------------------------------------------|

B|---------------------------------------------------------------------------|

G|-------------------------------------4-------------------------------------|

D|-9--7----5--------9------2--0-----0----------------------------------------|

A|--------------7-------3--------2-------------------------------------------|

E|--------------0------------------------------------------------------------|

Repeat below about 3 or 4 times

e|--------------------------------------------0------------------------------|

B|----------------------------------------0---0------------------------------|

G|----------------------------------------2---2------------------------------|

D|----------5-----------------------5-----1----------------------------------|

A|-7--5h-7----7--5---7--5--2----7-----2--------------------------------------|

E|-0--------------------------0----------------------------------------------|

Then back to the starting riff (slightly modified)

e|----------------------------------------------------------------------------|

B|----------------------------------------------------------------------------|

G|-------------------------4------4-------------------------------------------|

D|------5-----1-0-----5--2------0---------------------------------------------|

A|-7--7----2-------3------------------5--3-----------------------------------|

E|-0--------------------------------------------------------------------------|

Ending

e|---------------------------------------------------------------------------|

B|--------------0-----5------------------------------------------------------|

G|--------------2-----4------------------------------------------------------|

D|------2-0-----1-----2------------------------------------------------------|

A|-7--3-----2---2-----2------------------------------------------------------|

E|-0-------------------------------------------------------------------------|

| / slide up

| slide down

| h hammer-on

| p pull-off

| ~ vibrato

| + harmonic

| x Mute note

Miami Morning Coming Down II (Shine)

The Bees Made Honey In the Lion's Skull

CAPO: 4th fret.

Main Riff:

e|--------------------------------------------|

B|--------------------------3-----------------|

G|---2----------------------------2-----------|

D|---------0----------------------------0-----|

A|---------------0h2--------------------------|

E|--------------------------------------------|

Repeat until this part comes in at 1:38 and 2:56:

e|-------------------------------|

B|---3-------1---0---------------|

G|--------------------0-----2----|

D|-------------------------------|

A|-------------------------------|

E|-------------------------------|

After that gets played the second time this riff comes in at 3:15:

e|----------------------------------|

B|---3-------1-------1/31----------|

G|----------------------------------|

D|----------------------------0-----|

A|----------------------------------|

E|----------------------------------|

That goes on for a bit until the second guitar comes in with this at 4:40:

e|------------------------------------------|

B|----3----1-------0h1--0-------------------|

G|--------------------------2--------0h2----|

D|------------------------------------------|

A|------------------------------------------|

E|------------------------------------------|

And that repeats until the end.

The Dire And Ever-Circling Wolves

guitar 2 is overdub.

(pretty sure there is only 1 guitarist).

sorry about spacing, timing is difficult, especially for earth.

on the other hand, all the notes are right. enjoy

e|---------------------------------------------------------------------------|

B|---------------------------------------------------------------------------|

G|---------0------------------------------------------0------------0---------|

D|---2--0----------------------------------------2--0--------2--0------------|

A|-----------------2--0-----(2)-0--------------------------------------------|

E|-3---------------------3---------3--0--------3-----------3-----------------|

e|---------------------------------------------------------------------------|

B|---------------------------------------------------------------------------|

G|---------------------------------------------------------------------------|

D|---------2-----------------------------------------------------------------|

A|--2-0---------2-0----------------------------------------------------------|

E|-------3----------3--0-----------------------------------------------------|

guitar 2 (starts 1:15)

e|---------------------------------------------------------------------------|

B|----------------------------------8----------------------------------------|

G|----------------------------7-------9-7-9----------------------------------|

D|------------------------7-9-----9------------------------------------------|

A|---------------------------------------------------------------------------|

E|---------------------------------------------------------------------------|

guitar 1 start again @ 1:24

e|---------------------------------------------------------------------------|

B|---------------------------------------------------------------------------|

G|------------------------------------------9--------------0-----------------|

D|---------------------------------------------------2--0--------------------|

A|-------2--0----2-0----2--0--------------7----------------------------------|

E|-0--3---------------3------3--0--(0)-------------3-------------------------|

e|---------------------------------------------------------------------------|

B|---------------------------------------------------------------------------|

G|-------------------------------0-----------0-------------------------------|

D|-------------------------2--0---------2--0--------2------0-----------------|

A|-2-0----2--0-------------------------------------------2---1---------------|

E|-----3-------3---0-----3------------3-----------3----3---------------------|

e|---------------------------------------------------------------------------|

B|---------------------------------------------------------------------------|

G|--------------4----------------------------------9---------0---------------|

D|-7^--5----6-7------------------------------------------2-0-----------------|

A|--------7-------------2-0----2-0----2-0--------7--------------2-0----2-0---|

E|-----------------0-3-------------3------3--0---------3------------3------3-|

e|---------------------------------------------------------------------------|

B|----------------------0----------------------------------------------------|

G|-------------0--------2----------------------------------------------------|

D|----------------------1----------9-8----------9-8---------2----------------|

A|---------0-1-------0--2----5-6-7--------5-6-7---------0--------------------|

E|-0-----3---------3--------------------------------------3---0----3---3---0-|

e|----------------------------------------------------------------------------|

B|----------------------------------------------------------------------------|

G|---0----------------0--4-3--------------------------------------------0-4-3-|

D|-2----------------2----------------------------0--------------------2-------|

A|-------------------------------------------------1--------------------------|

E|-----3--3-(3)--0----------------3--3-(3)--0-----------3--3-(3)--0-----------|

e|---------------------------------------------------------------------------|

B|---------------------------------------------------------------------------|

G|-------------------0--------------0---------------------------0---------0--|

D|-----------------2-----------2--0-------------------------2-0-------2-0----|

A|---------------------0-1--------------2-0----2-0---------------------------|

E|--3--3-(3)--0---------------3-------------3------3--0---3---------3--------|

(6:48 play guitar 2 from earlier)

e|---------------------------------------------------------------------------|

B|---------------------------------------------------------------------------|

G|---------------------------------------------------------------------9-----|

D|-------2-----------------------------------------------------------9-------|

A|-2-0-------2-0-----------------2--0----2-0----2-0----2-0---------7---------|

E|-----3---------3--0------0--3--------------3------3------3--0--------------|

e|---------------------------------------------------------------------------|

B|---------------------------------------------------------------------------|

G|---------------------------------------------------------------------------|

D|--7^9r-7-(outro-noise)-----------------------------------------------------|

A|---------------------------------------------------------------------------|

E|---------------------------------------------------------------------------|

| / slide up

| slide down

| h hammer-on

| p pull-off

| ~ vibrato

| + harmonic

| x Mute note

| b bend

| r release to original note

----------------------------------------------------------------------------------

Thanks to some other guy on the net and me for the tabs! :mrgreen:

Link to post
Share on other sites
  • 11 months later...
  • 4 months later...

Join the conversation

You can post now and register later. If you have an account, sign in now to post with your account.

Guest
Reply to this topic...

×   Pasted as rich text.   Paste as plain text instead

  Only 75 emoji are allowed.

×   Your link has been automatically embedded.   Display as a link instead

×   Your previous content has been restored.   Clear editor

×   You cannot paste images directly. Upload or insert images from URL.

×
×
  • Create New...