Jump to content

twenty four tabs


Recommended Posts

one of my favorite Mudhoney songs.

Twenty four:

Intro x4

e------------------------------------------

B------------------------------------------

G------------------------------------------

D--10---8-8-8-8--6---4-4-4-4-----------

A--10---8-8-8-8--6---4-4-4-4-----------

E--8----6-6-6-6--4---2-2-2-2------------

then

e----------------------------------------

B----------------------------------------

G----------------------------------------

D-3-3--4-4-8-8-9-9--------------------

A-3-3--4-4-8-8-9-9--------------------

E-1-1--2-2-6-6-7-7--------------------

chorus (can be played with 3 (799) instead of (799 xxx xxx)

e----------------------------------

B----------------------------------

G----------------------------------

D--9-x-x-9-x-x-12-12-12-12----

A--9-x-x-9-x-x-12-12-12-12----

E--7-x-x-7-x-x--10-10-10-10----

Link to comment
Share on other sites

  • 3 weeks later...

And I thought, at fifteen, that I'd,

Have it down by sixteen,

And twenty-four,

Keeps breathing in my face,

Like a mad whore,

And twenty-four,

Keeps pounding at my door...

Like a friend... You don't want to see,

Oldness comes with a smile,

To every love-given child.

IMO, 24 by Red House Painters is the best song called 24. :-D

Link to comment
Share on other sites

And I thought, at fifteen, that I'd,

Have it down by sixteen,

And twenty-four,

Keeps breathing in my face,

Like a mad whore,

And twenty-four,

Keeps pounding at my door...

Like a friend... You don't want to see,

Oldness comes with a smile,

To every love-given child.

IMO, 24 by Red House Painters is the best song called 24. :-D

I'll have to check it out sounds like it'd be pretty good.

Link to comment
Share on other sites

  • 1 year later...

Join the conversation

You can post now and register later. If you have an account, sign in now to post with your account.

Guest
Reply to this topic...

×   Pasted as rich text.   Paste as plain text instead

  Only 75 emoji are allowed.

×   Your link has been automatically embedded.   Display as a link instead

×   Your previous content has been restored.   Clear editor

×   You cannot paste images directly. Upload or insert images from URL.

 Share

×
×
  • Create New...